  0
SECTION
  2
HEADER
  9
$EXTMAX
 10
-39.648185363
 20
-18.937851759
  9
$EXTMIN
 10
-41.997145137
 20
-23.047348208
  9
$LUPREC
 70
  8
  0
ENDSEC
  0
SECTION
  2
TABLES
  0
TABLE
  2
LAYER
 70
  2
  0
LAYER
  2
0
 70
  0
 62
  7
  6
CONTINUOUS
  0
LAYER
  2
Prob_costa_shp
 70
 64
 62
  7
  6
CONTINUOUS
  0
ENDTAB
  0
ENDSEC
  0
SECTION
  2
BLOCKS
  0
ENDSEC
  0
SECTION
  2
ENTITIES
  0
POLYLINE
  8
Prob_costa_shp
 62
256.000000000
 66
  1
 10
0.0
 20
0.0
 30
0.000000000
 39
1.000000000
  0
VERTEX
  8
Prob_costa_shp
 10
-41.997145137
 20
-23.047348208
 30
0.000000000
 39
1.000000000
  0
VERTEX
  8
Prob_costa_shp
 10
-41.959678519
 20
-23.005937736
 30
0.000000000
 39
1.000000000
  0
VERTEX
  8
Prob_costa_shp
 10
-41.922211901
 20
-22.964527263
 30
0.000000000
 39
1.000000000
  0
VERTEX
  8
Prob_costa_shp
 10
-41.906436482
 20
-22.911285226
 30
0.000000000
 39
1.000000000
  0
VERTEX
  8
Prob_costa_shp
 10
-41.880801428
 20
-22.844239699
 30
0.000000000
 39
1.000000000
  0
VERTEX
  8
Prob_costa_shp
 10
-41.847278664
 20
-22.792969590
 30
0.000000000
 39
1.000000000
  0
VERTEX
  8
Prob_costa_shp
 10
-41.831503246
 20
-22.769306462
 30
0.000000000
 39
1.000000000
  0
VERTEX
  8
Prob_costa_shp
 10
-41.829531318
 20
-22.733811771
 30
0.000000000
 39
1.000000000
  0
VERTEX
  8
Prob_costa_shp
 10
-41.863054082
 20
-22.706204789
 30
0.000000000
 39
1.000000000
  0
VERTEX
  8
Prob_costa_shp
 10
-41.914324191
 20
-22.704232862
 30
0.000000000
 39
1.000000000
  0
VERTEX
  8
Prob_costa_shp
 10
-41.932071537
 20
-22.704232862
 30
0.000000000
 39
1.000000000
  0
VERTEX
  8
Prob_costa_shp
 10
-41.955734664
 20
-22.674653953
 30
0.000000000
 39
1.000000000
  0
VERTEX
  8
Prob_costa_shp
 10
-41.955734664
 20
-22.613524207
 30
0.000000000
 39
1.000000000
  0
VERTEX
  8
Prob_costa_shp
 10
-41.932071537
 20
-22.568169880
 30
0.000000000
 39
1.000000000
  0
VERTEX
  8
Prob_costa_shp
 10
-41.878829500
 20
-22.514927843
 30
0.000000000
 39
1.000000000
  0
VERTEX
  8
Prob_costa_shp
 10
-41.748682300
 20
-22.410415697
 30
0.000000000
 39
1.000000000
  0
VERTEX
  8
Prob_costa_shp
 10
-41.654029791
 20
-22.327594752
 30
0.000000000
 39
1.000000000
  0
VERTEX
  8
Prob_costa_shp
 10
-41.504163317
 20
-22.262521151
 30
0.000000000
 39
1.000000000
  0
VERTEX
  8
Prob_costa_shp
 10
-41.293167099
 20
-22.201391406
 30
0.000000000
 39
1.000000000
  0
VERTEX
  8
Prob_costa_shp
 10
-41.115693644
 20
-22.140261660
 30
0.000000000
 39
1.000000000
  0
VERTEX
  8
Prob_costa_shp
 10
-41.023013061
 20
-22.090963478
 30
0.000000000
 39
1.000000000
  0
VERTEX
  8
Prob_costa_shp
 10
-40.963855243
 20
-22.033777587
 30
0.000000000
 39
1.000000000
  0
SEQEND
  8
0
  0
POLYLINE
  8
Prob_costa_shp
 62
256.000000000
 66
  1
 10
0.0
 20
0.0
 30
0.000000000
 39
2.000000000
  0
VERTEX
  8
Prob_costa_shp
 10
-40.959911389
 20
-22.027861805
 30
0.000000000
 39
2.000000000
  0
VERTEX
  8
Prob_costa_shp
 10
-40.942164043
 20
-21.968703987
 30
0.000000000
 39
2.000000000
  0
VERTEX
  8
Prob_costa_shp
 10
-40.948079825
 20
-21.900672496
 30
0.000000000
 39
2.000000000
  0
VERTEX
  8
Prob_costa_shp
 10
-40.975686807
 20
-21.804048059
 30
0.000000000
 39
2.000000000
  0
VERTEX
  8
Prob_costa_shp
 10
-40.989490298
 20
-21.662069295
 30
0.000000000
 39
2.000000000
  0
VERTEX
  8
Prob_costa_shp
 10
-40.989490298
 20
-21.616714968
 30
0.000000000
 39
2.000000000
  0
VERTEX
  8
Prob_costa_shp
 10
-41.009209570
 20
-21.579248349
 30
0.000000000
 39
2.000000000
  0
VERTEX
  8
Prob_costa_shp
 10
-41.023013061
 20
-21.549669440
 30
0.000000000
 39
2.000000000
  0
VERTEX
  8
Prob_costa_shp
 10
-41.026956916
 20
-21.504315113
 30
0.000000000
 39
2.000000000
  0
VERTEX
  8
Prob_costa_shp
 10
-40.999349934
 20
-21.456988858
 30
0.000000000
 39
2.000000000
  0
VERTEX
  8
Prob_costa_shp
 10
-40.948079825
 20
-21.380083694
 30
0.000000000
 39
2.000000000
  0
VERTEX
  8
Prob_costa_shp
 10
-40.926388625
 20
-21.330785512
 30
0.000000000
 39
2.000000000
  0
VERTEX
  8
Prob_costa_shp
 10
-40.898781643
 20
-21.253880348
 30
0.000000000
 39
2.000000000
  0
VERTEX
  8
Prob_costa_shp
 10
-40.894837788
 20
-21.216413730
 30
0.000000000
 39
2.000000000
  0
VERTEX
  8
Prob_costa_shp
 10
-40.839623824
 20
-21.153312057
 30
0.000000000
 39
2.000000000
  0
VERTEX
  8
Prob_costa_shp
 10
-40.819904552
 20
-21.121761221
 30
0.000000000
 39
2.000000000
  0
VERTEX
  8
Prob_costa_shp
 10
-40.786776173
 20
-21.040912202
 30
0.000000000
 39
2.000000000
  0
VERTEX
  8
Prob_costa_shp
 10
-40.759169192
 20
-20.938371984
 30
0.000000000
 39
2.000000000
  0
SEQEND
  8
0
  0
POLYLINE
  8
Prob_costa_shp
 62
256.000000000
 66
  1
 10
0.0
 20
0.0
 30
0.000000000
 39
3.000000000
  0
VERTEX
  8
Prob_costa_shp
 10
-40.759169192
 20
-20.938371984
 30
0.000000000
 39
3.000000000
  0
VERTEX
  8
Prob_costa_shp
 10
-40.735506064
 20
-20.896961511
 30
0.000000000
 39
3.000000000
  0
VERTEX
  8
Prob_costa_shp
 10
-40.700011373
 20
-20.867382602
 30
0.000000000
 39
3.000000000
  0
VERTEX
  8
Prob_costa_shp
 10
-40.664516682
 20
-20.853579111
 30
0.000000000
 39
3.000000000
  0
VERTEX
  8
Prob_costa_shp
 10
-40.632965846
 20
-20.853579111
 30
0.000000000
 39
3.000000000
  0
SEQEND
  8
0
  0
POLYLINE
  8
Prob_costa_shp
 62
256.000000000
 66
  1
 10
0.0
 20
0.0
 30
0.000000000
 39
4.000000000
  0
VERTEX
  8
Prob_costa_shp
 10
-40.629021991
 20
-20.853579111
 30
0.000000000
 39
4.000000000
  0
VERTEX
  8
Prob_costa_shp
 10
-40.607330791
 20
-20.853579111
 30
0.000000000
 39
4.000000000
  0
VERTEX
  8
Prob_costa_shp
 10
-40.573808027
 20
-20.837803693
 30
0.000000000
 39
4.000000000
  0
VERTEX
  8
Prob_costa_shp
 10
-40.556060682
 20
-20.810196711
 30
0.000000000
 39
4.000000000
  0
SEQEND
  8
0
  0
POLYLINE
  8
Prob_costa_shp
 62
256.000000000
 66
  1
 10
0.0
 20
0.0
 30
0.000000000
 39
5.000000000
  0
VERTEX
  8
Prob_costa_shp
 10
-40.554088755
 20
-20.808224783
 30
0.000000000
 39
5.000000000
  0
VERTEX
  8
Prob_costa_shp
 10
-40.518594064
 20
-20.758926601
 30
0.000000000
 39
5.000000000
  0
VERTEX
  8
Prob_costa_shp
 10
-40.483099372
 20
-20.713572274
 30
0.000000000
 39
5.000000000
  0
VERTEX
  8
Prob_costa_shp
 10
-40.471267809
 20
-20.687937219
 30
0.000000000
 39
5.000000000
  0
SEQEND
  8
0
  0
POLYLINE
  8
Prob_costa_shp
 62
256.000000000
 66
  1
 10
0.0
 20
0.0
 30
0.000000000
 39
6.000000000
  0
VERTEX
  8
Prob_costa_shp
 10
-40.465352027
 20
-20.687937219
 30
0.000000000
 39
6.000000000
  0
VERTEX
  8
Prob_costa_shp
 10
-40.404222281
 20
-20.630751328
 30
0.000000000
 39
6.000000000
  0
VERTEX
  8
Prob_costa_shp
 10
-40.349008318
 20
-20.545958455
 30
0.000000000
 39
6.000000000
  0
VERTEX
  8
Prob_costa_shp
 10
-40.291822426
 20
-20.441446309
 30
0.000000000
 39
6.000000000
  0
VERTEX
  8
Prob_costa_shp
 10
-40.268159299
 20
-20.384260418
 30
0.000000000
 39
6.000000000
  0
VERTEX
  8
Prob_costa_shp
 10
-40.173506790
 20
-20.252141291
 30
0.000000000
 39
6.000000000
  0
VERTEX
  8
Prob_costa_shp
 10
-40.147871735
 20
-20.161432636
 30
0.000000000
 39
6.000000000
  0
VERTEX
  8
Prob_costa_shp
 10
-40.138012099
 20
-20.086499399
 30
0.000000000
 39
6.000000000
  0
SEQEND
  8
0
  0
POLYLINE
  8
Prob_costa_shp
 62
256.000000000
 66
  1
 10
0.0
 20
0.0
 30
0.000000000
 39
7.000000000
  0
VERTEX
  8
Prob_costa_shp
 10
-40.139984026
 20
-20.076639763
 30
0.000000000
 39
7.000000000
  0
VERTEX
  8
Prob_costa_shp
 10
-40.126180535
 20
-20.025369654
 30
0.000000000
 39
7.000000000
  0
VERTEX
  8
Prob_costa_shp
 10
-40.100545480
 20
-19.962267981
 30
0.000000000
 39
7.000000000
  0
SEQEND
  8
0
  0
POLYLINE
  8
Prob_costa_shp
 62
256.000000000
 66
  1
 10
0.0
 20
0.0
 30
0.000000000
 39
8.000000000
  0
VERTEX
  8
Prob_costa_shp
 10
-40.096601626
 20
-19.956352199
 30
0.000000000
 39
8.000000000
  0
VERTEX
  8
Prob_costa_shp
 10
-40.059135008
 20
-19.897194381
 30
0.000000000
 39
8.000000000
  0
VERTEX
  8
Prob_costa_shp
 10
-40.025612244
 20
-19.838036562
 30
0.000000000
 39
8.000000000
  0
SEQEND
  8
0
  0
POLYLINE
  8
Prob_costa_shp
 62
256.000000000
 66
  1
 10
0.0
 20
0.0
 30
0.000000000
 39
9.000000000
  0
VERTEX
  8
Prob_costa_shp
 10
-40.017724535
 20
-19.834092708
 30
0.000000000
 39
9.000000000
  0
VERTEX
  8
Prob_costa_shp
 10
-39.972370207
 20
-19.780850671
 30
0.000000000
 39
9.000000000
  0
VERTEX
  8
Prob_costa_shp
 10
-39.962510571
 20
-19.769019107
 30
0.000000000
 39
9.000000000
  0
SEQEND
  8
0
  0
POLYLINE
  8
Prob_costa_shp
 62
256.000000000
 66
  1
 10
0.0
 20
0.0
 30
0.000000000
 39
10.000000000
  0
VERTEX
  8
Prob_costa_shp
 10
-39.960538644
 20
-19.769019107
 30
0.000000000
 39
10.000000000
  0
VERTEX
  8
Prob_costa_shp
 10
-39.885605407
 20
-19.719720925
 30
0.000000000
 39
10.000000000
  0
VERTEX
  8
Prob_costa_shp
 10
-39.806728316
 20
-19.672394671
 30
0.000000000
 39
10.000000000
  0
VERTEX
  8
Prob_costa_shp
 10
-39.790952898
 20
-19.648731543
 30
0.000000000
 39
10.000000000
  0
VERTEX
  8
Prob_costa_shp
 10
-39.721935443
 20
-19.521542234
 30
0.000000000
 39
10.000000000
  0
VERTEX
  8
Prob_costa_shp
 10
-39.702216170
 20
-19.474215979
 30
0.000000000
 39
10.000000000
  0
SEQEND
  8
0
  0
POLYLINE
  8
Prob_costa_shp
 62
256.000000000
 66
  1
 10
0.0
 20
0.0
 30
0.000000000
 39
11.000000000
  0
VERTEX
  8
Prob_costa_shp
 10
-39.695511617
 20
-19.476187906
 30
0.000000000
 39
11.000000000
  0
VERTEX
  8
Prob_costa_shp
 10
-39.656073072
 20
-19.377591543
 30
0.000000000
 39
11.000000000
  0
VERTEX
  8
Prob_costa_shp
 10
-39.648185363
 20
-19.292798670
 30
0.000000000
 39
11.000000000
  0
VERTEX
  8
Prob_costa_shp
 10
-39.656073072
 20
-19.213921578
 30
0.000000000
 39
11.000000000
  0
VERTEX
  8
Prob_costa_shp
 10
-39.673820417
 20
-19.109409433
 30
0.000000000
 39
11.000000000
  0
VERTEX
  8
Prob_costa_shp
 10
-39.701427399
 20
-18.981234159
 30
0.000000000
 39
11.000000000
  0
VERTEX
  8
Prob_costa_shp
 10
-39.705371254
 20
-18.937851759
 30
0.000000000
 39
11.000000000
  0
SEQEND
  8
0
0
ENDSEC
0
EOF
