  0
SECTION
  2
HEADER
  9
$ANGBASE
 50
     0
  9
$EXTMIN
 10
692624.98
 20
8774264.9
 30
0
  9
$EXTMAX
 10
759404.6
 20
8879090.8
 30
0
  0
ENDSEC
  0
SECTION
  2
TABLES
  0
ENDSEC
  0
SECTION
  2
BLOCKS
  0
ENDSEC
  0
SECTION
  2
ENTITIES
  0
POLYLINE
  8
0
 62
   255
 66
     1
 10
0
 20
0
 30
0
 70
     1
  0
VERTEX
  8
0
 10
692642.62
 20
8774282.6
 30
0
  0
VERTEX
  8
0
 10
692921.08
 20
8774731.7
 30
0
  0
VERTEX
  8
0
 10
693161.58
 20
8774282.6
 30
0
  0
VERTEX
  8
0
 10
693148.92
 20
8774282.6
 30
0
  0
SEQEND
  0
TEXT
  8
0
 62
   255
 10
703889.45
 20
8878038.1
 30
0
 40
183.62894
  1
ESTA^
 50
7.7615786e-009
  0
LINE
  8
0
 62
   255
 10
712308.59
 20
8873788.5
 30
0
 11
701719.43
 21
8873788.5
 31
0
  0
LINE
  8
0
 62
   255
 10
712308.59
 20
8877517.9
 30
0
 11
701719.43
 21
8877517.9
 31
0
  0
TEXT
  8
0
 62
   255
 10
703075.89
 20
8874892.3
 30
0
 40
157.39623
  1
NE^
  0
TEXT
  8
0
 62
   255
 10
703059.03
 20
8875471
 30
0
 40
157.39623
  1
DIVINA PASTORA
  0
TEXT
  8
0
 62
   255
 10
704604.21
 20
8876969.4
 30
0
 40
183.62894
  1
MUNIC^
  0
LINE
  8
0
 62
   255
 10
712308.59
 20
8876311
 30
0
 11
701719.43
 21
8876311
 31
0
  0
TEXT
  8
0
 62
   255
 10
703057.12
 20
8876044.1
 30
0
 40
157.39623
  1
MARUIM
  0
TEXT
  8
0
 62
   255
 10
703069.56
 20
8874346.9
 30
0
 40
157.39623
  1
NE^
  0
TEXT
  8
0
 62
   255
 10
702113.83
 20
8874341.3
 30
0
 40
157.39623
  1
04
  0
TEXT
  8
0
 62
   255
 10
702119.26
 20
8874897.8
 30
0
 40
157.39623
  1
03
  0
TEXT
  8
0
 62
   255
 10
702113.83
 20
8875471
 30
0
 40
157.39623
  1
02
  0
TEXT
  8
0
 62
   255
 10
702130.23
 20
8876055
 30
0
 40
157.39623
  1
01
  0
TEXT
  8
0
 62
   255
 10
702004.2
 20
8876992.4
 30
0
 40
183.62894
  1
EMF
  0
LINE
  8
0
 62
   255
 10
702917.38
 20
8877517.9
 30
0
 11
702917.38
 21
8873788.5
 31
0
  0
LINE
  8
0
 62
   255
 10
701719.43
 20
8877517.9
 30
0
 11
701719.43
 21
8873788.5
 31
0
  0
LINE
  8
0
 62
   255
 10
712308.59
 20
8876890.8
 30
0
 11
707866.63
 21
8876890.8
 31
0
  0
LINE
  8
0
 62
   255
 10
712308.59
 20
8877517.9
 30
0
 11
712308.59
 21
8873788.5
 31
0
  0
LINE
  8
0
 62
   255
 10
709999.77
 20
8876890.8
 30
0
 11
709999.77
 21
8873788.5
 31
0
  0
TEXT
  8
0
 62
   255
 10
710208.55
 20
8874366.7
 30
0
 40
157.39623
  1
8861849,612
  0
TEXT
  8
0
 62
   255
 10
710208.71
 20
8874929.2
 30
0
 40
157.39623
  1
8862091,000
  0
TEXT
  8
0
 62
   255
 10
710192.18
 20
8875507.7
 30
0
 40
157.39623
  1
8820933,347
  0
TEXT
  8
0
 62
   255
 10
710208.65
 20
8876069.6
 30
0
 40
157.39623
  1
8814893,259
  0
TEXT
  8
0
 62
   255
 10
708109.01
 20
8874366.8
 30
0
 40
157.39623
  1
754229,314
  0
TEXT
  8
0
 62
   255
 10
708142.06
 20
8874929.1
 30
0
 40
157.39623
  1
746552,000
  0
TEXT
  8
0
 62
   255
 10
708142.06
 20
8875507.6
 30
0
 40
157.39623
  1
705980,773
  0
TEXT
  8
0
 62
   255
 10
708142.02
 20
8876086
 30
0
 40
157.39623
  1
704128,591
  0
TEXT
  8
0
 62
   255
 10
710990.27
 20
8876481.8
 30
0
 40
183.62894
  1
( N )
 50
8.6075907e-007
  0
TEXT
  8
0
 62
   255
 10
708822.79
 20
8876498.3
 30
0
 40
183.62894
  1
( E )
 50
1.0264688e-006
  0
TEXT
  8
0
 62
   255
 10
708765.2
 20
8877080
 30
0
 40
183.62894
  1
COORDENADAS UTM
 50
3.1434393e-008
  0
LINE
  8
0
 62
   255
 10
707866.63
 20
8877517.9
 30
0
 11
707866.63
 21
8873788.5
 31
0
  0
TEXT
  8
0
 62
   255
 10
751396.51
 20
8814908.6
 30
0
 40
183.62894
  1
ESTA^
 50
-7.3734997e-009
  0
LINE
  8
0
 62
   255
 10
759389.98
 20
8810735
 30
0
 11
748800.83
 21
8810735
 31
0
  0
LINE
  8
0
 62
   255
 10
759389.98
 20
8814464.3
 30
0
 11
748800.83
 21
8814464.3
 31
0
  0
TEXT
  8
0
 62
   255
 10
750138.46
 20
8812990.5
 30
0
 40
183.62894
  1
MARUIM
  0
TEXT
  8
0
 62
   255
 10
750150.9
 20
8811293.3
 30
0
 40
183.62894
  1
NE^
  0
TEXT
  8
0
 62
   255
 10
750157.23
 20
8811838.7
 30
0
 40
183.62894
  1
NE^
  0
TEXT
  8
0
 62
   255
 10
750140.37
 20
8812417.4
 30
0
 40
183.62894
  1
DIVINA PASTORA
  0
LINE
  8
0
 62
   255
 10
759389.98
 20
8813257.4
 30
0
 11
748800.83
 21
8813257.4
 31
0
  0
TEXT
  8
0
 62
   255
 10
749195.17
 20
8811287.7
 30
0
 40
183.62894
  1
04
  0
TEXT
  8
0
 62
   255
 10
749200.6
 20
8811844.3
 30
0
 40
183.62894
  1
03
  0
TEXT
  8
0
 62
   255
 10
749195.17
 20
8812417.4
 30
0
 40
183.62894
  1
02
  0
TEXT
  8
0
 62
   255
 10
749211.57
 20
8813001.4
 30
0
 40
183.62894
  1
01
  0
TEXT
  8
0
 62
   255
 10
749085.54
 20
8813938.8
 30
0
 40
183.62894
  1
EMF
  0
LINE
  8
0
 62
   255
 10
749998.78
 20
8814464.3
 30
0
 11
749998.78
 21
8810735
 31
0
  0
LINE
  8
0
 62
   255
 10
748800.83
 20
8814464.3
 30
0
 11
748800.83
 21
8810735
 31
0
  0
LINE
  8
0
 62
   255
 10
759389.98
 20
8813837.3
 30
0
 11
754948.02
 21
8813837.3
 31
0
  0
TEXT
  8
0
 62
   255
 10
757289.89
 20
8811313.1
 30
0
 40
183.62894
  1
8861849,612
  0
TEXT
  8
0
 62
   255
 10
757290.05
 20
8811875.6
 30
0
 40
183.62894
  1
8862091,000
  0
TEXT
  8
0
 62
   255
 10
757273.52
 20
8812454.1
 30
0
 40
183.62894
  1
8820933,347
  0
TEXT
  8
0
 62
   255
 10
757289.99
 20
8813016
 30
0
 40
183.62894
  1
8814893,259
  0
TEXT
  8
0
 62
   255
 10
758209.44
 20
8813460.9
 30
0
 40
183.62894
  1
( N )
 50
-8.6075907e-007
  0
TEXT
  8
0
 62
   255
 10
756173.57
 20
8814059.1
 30
0
 40
183.62894
  1
COORDENADAS UTM
 50
3.1434393e-008
  0
LINE
  8
0
 62
   255
 10
757081.16
 20
8813837.3
 30
0
 11
757081.16
 21
8810735
 31
0
  0
TEXT
  8
0
 62
   255
 10
755190.35
 20
8811313.2
 30
0
 40
183.62894
  1
754229,314
  0
TEXT
  8
0
 62
   255
 10
755223.4
 20
8811875.5
 30
0
 40
183.62894
  1
746552,000
  0
TEXT
  8
0
 62
   255
 10
755223.4
 20
8812454
 30
0
 40
183.62894
  1
705980,773
  0
TEXT
  8
0
 62
   255
 10
755223.36
 20
8813032.5
 30
0
 40
183.62894
  1
704128,591
  0
TEXT
  8
0
 62
   255
 10
755900.96
 20
8813402.5
 30
0
 40
183.62894
  1
( E )
 50
-2.0533256e-006
  0
TEXT
  8
0
 62
   255
 10
751685.55
 20
8813915.8
 30
0
 40
183.62894
  1
MUNIC^
  0
LINE
  8
0
 62
   255
 10
754948.02
 20
8814464.3
 30
0
 11
754948.02
 21
8810735
 31
0
  0
LINE
  8
0
 62
   255
 10
759389.98
 20
8814464.3
 30
0
 11
759389.98
 21
8810735
 31
0
  0
TEXT
  8
0
 62
   255
 10
727717.49
 20
8795588
 30
0
 40
157.39623
  1
^ñREA DE SOLUTURA  02 = 297,9291ha
  0
TEXT
  8
0
 62
   255
 10
727641.51
 20
8799497.1
 30
0
 40
157.39623
  1
 ^ñREA DE SOLUTURA  01 = 36,8163ha
 50
3.8686691e-008
  0
TEXT
  8
0
 62
   255
 10
730251.72
 20
8790627.1
 30
0
 40
157.39623
  1
-10 39' 48,72179''
  0
TEXT
  8
0
 62
   255
 10
730251.72
 20
8790997.1
 30
0
 40
157.39623
  1
-10 39' 44,69581''
  0
TEXT
  8
0
 62
   255
 10
730251.72
 20
8791367.1
 30
0
 40
157.39623
  1
-10 39' 45,99842''
  0
TEXT
  8
0
 62
   255
 10
730251.72
 20
8791737.1
 30
0
 40
157.39623
  1
-10 39' 53,63911''
  0
TEXT
  8
0
 62
   255
 10
730251.72
 20
8792107.1
 30
0
 40
157.39623
  1
-10 39' 50,59215''
  0
TEXT
  8
0
 62
   255
 10
730251.72
 20
8792477.1
 30
0
 40
157.39623
  1
-10 39' 55,37594''
  0
TEXT
  8
0
 62
   255
 10
730251.72
 20
8792847.1
 30
0
 40
157.39623
  1
-10 40' 07,19092''
  0
TEXT
  8
0
 62
   255
 10
730251.72
 20
8793217.1
 30
0
 40
157.39623
  1
-10 40' 25,25113''
  0
TEXT
  8
0
 62
   255
 10
730251.72
 20
8793587.1
 30
0
 40
157.39623
  1
-10 40' 22,97904''
  0
TEXT
  8
0
 62
   255
 10
730251.72
 20
8793957.1
 30
0
 40
157.39623
  1
-10 40' 04,20316''
  0
TEXT
  8
0
 62
   255
 10
730251.72
 20
8794327.1
 30
0
 40
157.39623
  1
-10 39' 43,53306''
  0
TEXT
  8
0
 62
   255
 10
730236.18
 20
8796631
 30
0
 40
157.39623
  1
-10 42' 45,74176''
  0
TEXT
  8
0
 62
   255
 10
730236.18
 20
8797001
 30
0
 40
157.39623
  1
-10 42' 56,35159''
  0
TEXT
  8
0
 62
   255
 10
730236.18
 20
8797371
 30
0
 40
157.39623
  1
-10 42' 58,89207''
  0
TEXT
  8
0
 62
   255
 10
730236.18
 20
8797741
 30
0
 40
157.39623
  1
-10 42' 41,56767''
  0
TEXT
  8
0
 62
   255
 10
730236.18
 20
8798111
 30
0
 40
157.39623
  1
-10 42' 33,40913''
  0
TEXT
  8
0
 62
   255
 10
707728.15
 20
8869649.3
 30
0
 40
157.39623
  1
^ñREA DE SOLUTURA  04 = 161,1949ha
 50
-3.7797223e-008
  0
TEXT
  8
0
 62
   255
 10
713343.52
 20
8868788.1
 30
0
 40
157.39623
  1
LONGITUDE (W)
  0
TEXT
  8
0
 62
   255
 10
710910.9
 20
8869174.4
 30
0
 40
157.39623
  1
COORDENADAS GEOGR^ñFICAS
  0
TEXT
  8
0
 62
   255
 10
714540.58
 20
8878225.6
 30
0
 40
157.39623
  1
V^SRTICE
  0
TEXT
  8
0
 62
   255
 10
713062.34
 20
8863911.2
 30
0
 40
157.39623
  1
-36 42' 13,16921''
  0
TEXT
  8
0
 62
   255
 10
713062.34
 20
8864281.2
 30
0
 40
157.39623
  1
-36 42' 08,39259''
  0
TEXT
  8
0
 62
   255
 10
713062.34
 20
8864651.2
 30
0
 40
157.39623
  1
-36 41' 43,25129''
  0
TEXT
  8
0
 62
   255
 10
713062.34
 20
8865021.2
 30
0
 40
157.39623
  1
-36 41' 28,99917''
  0
TEXT
  8
0
 62
   255
 10
713062.34
 20
8865391.2
 30
0
 40
157.39623
  1
-36 41' 25,85687''
  0
TEXT
  8
0
 62
   255
 10
713062.34
 20
8865761.2
 30
0
 40
157.39623
  1
-36 41' 31,91627''
  0
TEXT
  8
0
 62
   255
 10
713062.34
 20
8866131.2
 30
0
 40
157.39623
  1
-36 41' 20,92146''
  0
TEXT
  8
0
 62
   255
 10
713062.34
 20
8866501.2
 30
0
 40
157.39623
  1
-36 41' 09,02141''
  0
TEXT
  8
0
 62
   255
 10
713062.34
 20
8866871.2
 30
0
 40
157.39623
  1
-36 41' 12,99097''
  0
TEXT
  8
0
 62
   255
 10
713062.34
 20
8867241.2
 30
0
 40
157.39623
  1
-36 41' 09,80013''
  0
TEXT
  8
0
 62
   255
 10
713062.34
 20
8867611.2
 30
0
 40
157.39623
  1
-36 41' 20,33457''
  0
TEXT
  8
0
 62
   255
 10
713062.34
 20
8867981.2
 30
0
 40
157.39623
  1
-36 41' 20,83873''
  0
TEXT
  8
0
 62
   255
 10
713062.34
 20
8868351.2
 30
0
 40
157.39623
  1
-36 41' 26,35638''
  0
TEXT
  8
0
 62
   255
 10
706434.99
 20
8869170.8
 30
0
 40
157.39623
  1
COORDENADAS UTM
  0
TEXT
  8
0
 62
   255
 10
707858.04
 20
8863877.1
 30
0
 40
157.39623
  1
8862209,400
  0
TEXT
  8
0
 62
   255
 10
707858.04
 20
8864247.1
 30
0
 40
157.39623
  1
8861449,600
  0
TEXT
  8
0
 62
   255
 10
707858.04
 20
8864617.1
 30
0
 40
157.39623
  1
8861609,500
  0
TEXT
  8
0
 62
   255
 10
707858.04
 20
8864987.1
 30
0
 40
157.39623
  1
8861522,900
  0
TEXT
  8
0
 62
   255
 10
707858.04
 20
8865357.1
 30
0
 40
157.39623
  1
8861196,300
  0
TEXT
  8
0
 62
   255
 10
707858.04
 20
8865727.1
 30
0
 40
157.39623
  1
8860896,400
  0
TEXT
  8
0
 62
   255
 10
707858.04
 20
8866097.1
 30
0
 40
157.39623
  1
8860696,400
  0
TEXT
  8
0
 62
   255
 10
707858.04
 20
8866467.1
 30
0
 40
157.39623
  1
8861296,300
  0
TEXT
  8
0
 62
   255
 10
707858.04
 20
8866837.1
 30
0
 40
157.39623
  1
8861416,200
  0
TEXT
  8
0
 62
   255
 10
707858.04
 20
8867207.1
 30
0
 40
157.39623
  1
8861809,500
  0
TEXT
  8
0
 62
   255
 10
707858.04
 20
8867577.1
 30
0
 40
157.39623
  1
8861916,100
  0
TEXT
  8
0
 62
   255
 10
707858.04
 20
8867947.1
 30
0
 40
157.39623
  1
8862196,000
  0
TEXT
  8
0
 62
   255
 10
707858.04
 20
8868317.1
 30
0
 40
157.39623
  1
8862382,700
  0
TEXT
  8
0
 62
   255
 10
706410.93
 20
8868763.6
 30
0
 40
157.39623
  1
( E )
  0
TEXT
  8
0
 62
   255
 10
704535.25
 20
8868757.4
 30
0
 40
157.39623
  1
V^SRTICE
  0
TEXT
  8
0
 62
   255
 10
705947.14
 20
8863879.5
 30
0
 40
157.39623
  1
751510,070
  0
TEXT
  8
0
 62
   255
 10
705947.14
 20
8864249.5
 30
0
 40
157.39623
  1
751650,030
  0
TEXT
  8
0
 62
   255
 10
705947.14
 20
8864619.5
 30
0
 40
157.39623
  1
752416,490
  0
TEXT
  8
0
 62
   255
 10
705947.14
 20
8864989.5
 30
0
 40
157.39623
  1
752849,710
  0
TEXT
  8
0
 62
   255
 10
705947.14
 20
8865359.5
 30
0
 40
157.39623
  1
752943,010
  0
TEXT
  8
0
 62
   255
 10
705947.14
 20
8865729.5
 30
0
 40
157.39623
  1
752756,400
  0
TEXT
  8
0
 62
   255
 10
705947.14
 20
8866099.5
 30
0
 40
157.39623
  1
753089,640
  0
TEXT
  8
0
 62
   255
 10
705947.14
 20
8866469.5
 30
0
 40
157.39623
  1
753456,210
  0
TEXT
  8
0
 62
   255
 10
705947.14
 20
8866839.5
 30
0
 40
157.39623
  1
753336,240
  0
TEXT
  8
0
 62
   255
 10
705947.14
 20
8867209.5
 30
0
 40
157.39623
  1
753436,210
  0
TEXT
  8
0
 62
   255
 10
705947.14
 20
8867579.5
 30
0
 40
157.39623
  1
753116,300
  0
TEXT
  8
0
 62
   255
 10
705947.14
 20
8867949.5
 30
0
 40
157.39623
  1
753102,970
  0
TEXT
  8
0
 62
   255
 10
705947.14
 20
8868319.5
 30
0
 40
157.39623
  1
752936,350
  0
TEXT
  8
0
 62
   255
 10
704820.87
 20
8863870.2
 30
0
 40
157.39623
  1
P13
  0
TEXT
  8
0
 62
   255
 10
704820.87
 20
8864240.2
 30
0
 40
157.39623
  1
P12
  0
TEXT
  8
0
 62
   255
 10
704820.87
 20
8864610.2
 30
0
 40
157.39623
  1
P11
  0
TEXT
  8
0
 62
   255
 10
704820.87
 20
8864980.2
 30
0
 40
157.39623
  1
P10
  0
TEXT
  8
0
 62
   255
 10
704820.87
 20
8865350.2
 30
0
 40
157.39623
  1
P09
  0
TEXT
  8
0
 62
   255
 10
704820.87
 20
8865720.2
 30
0
 40
157.39623
  1
P08
  0
TEXT
  8
0
 62
   255
 10
704820.87
 20
8866090.2
 30
0
 40
157.39623
  1
P07
  0
TEXT
  8
0
 62
   255
 10
704820.87
 20
8866460.2
 30
0
 40
157.39623
  1
P06
  0
TEXT
  8
0
 62
   255
 10
704820.87
 20
8866830.2
 30
0
 40
157.39623
  1
P05
  0
TEXT
  8
0
 62
   255
 10
704820.87
 20
8867200.2
 30
0
 40
157.39623
  1
P04
  0
TEXT
  8
0
 62
   255
 10
704820.87
 20
8867570.2
 30
0
 40
157.39623
  1
P03
  0
TEXT
  8
0
 62
   255
 10
704820.87
 20
8867940.2
 30
0
 40
157.39623
  1
P02
  0
TEXT
  8
0
 62
   255
 10
704820.87
 20
8868310.2
 30
0
 40
157.39623
  1
P01
  0
TEXT
  8
0
 62
   255
 10
710557.13
 20
8868777.2
 30
0
 40
157.39623
  1
LATITUDE (S)
  0
TEXT
  8
0
 62
   255
 10
708449.11
 20
8868806.9
 30
0
 40
157.39623
  1
( N )
  0
TEXT
  8
0
 62
   255
 10
710144.79
 20
8863922.2
 30
0
 40
157.39623
  1
-10 17' 04,92607''
  0
TEXT
  8
0
 62
   255
 10
710144.79
 20
8864292.2
 30
0
 40
157.39623
  1
-10 17' 29,61245''
  0
TEXT
  8
0
 62
   255
 10
710144.79
 20
8864662.2
 30
0
 40
157.39623
  1
-10 17' 24,23135''
  0
TEXT
  8
0
 62
   255
 10
710144.79
 20
8865032.2
 30
0
 40
157.39623
  1
-10 17' 26,94732''
  0
TEXT
  8
0
 62
   255
 10
710144.79
 20
8865402.2
 30
0
 40
157.39623
  1
-10 17' 37,55082''
  0
TEXT
  8
0
 62
   255
 10
710144.79
 20
8865772.2
 30
0
 40
157.39623
  1
-10 17' 47,35130''
  0
TEXT
  8
0
 62
   255
 10
710144.79
 20
8866142.2
 30
0
 40
157.39623
  1
-10 17' 53,77980''
  0
TEXT
  8
0
 62
   255
 10
710144.79
 20
8866512.2
 30
0
 40
157.39623
  1
-10 17' 34,17706''
  0
TEXT
  8
0
 62
   255
 10
710144.79
 20
8866882.2
 30
0
 40
157.39623
  1
-10 17' 30,30450''
  0
TEXT
  8
0
 62
   255
 10
710144.79
 20
8867252.2
 30
0
 40
157.39623
  1
-10 17' 17,48573''
  0
TEXT
  8
0
 62
   255
 10
710144.79
 20
8867622.2
 30
0
 40
157.39623
  1
-10 17' 14,09275''
  0
TEXT
  8
0
 62
   255
 10
710144.79
 20
8867992.2
 30
0
 40
157.39623
  1
-10 17' 04,98982''
  0
TEXT
  8
0
 62
   255
 10
710144.79
 20
8868362.2
 30
0
 40
157.39623
  1
-10 16' 58,95489''
  0
TEXT
  8
0
 62
   255
 10
714794.38
 20
8874078.9
 30
0
 40
157.39623
  1
P11
  0
TEXT
  8
0
 62
   255
 10
714794.38
 20
8874448.9
 30
0
 40
157.39623
  1
P10
  0
TEXT
  8
0
 62
   255
 10
714794.38
 20
8874818.9
 30
0
 40
157.39623
  1
P09
  0
TEXT
  8
0
 62
   255
 10
714794.38
 20
8875188.9
 30
0
 40
157.39623
  1
P08
  0
TEXT
  8
0
 62
   255
 10
714794.38
 20
8875558.9
 30
0
 40
157.39623
  1
P07
  0
TEXT
  8
0
 62
   255
 10
714794.38
 20
8875928.9
 30
0
 40
157.39623
  1
P06
  0
TEXT
  8
0
 62
   255
 10
714794.38
 20
8876298.9
 30
0
 40
157.39623
  1
P05
  0
TEXT
  8
0
 62
   255
 10
714794.38
 20
8876668.9
 30
0
 40
157.39623
  1
P04
  0
TEXT
  8
0
 62
   255
 10
714794.38
 20
8877038.9
 30
0
 40
157.39623
  1
P03
  0
TEXT
  8
0
 62
   255
 10
714794.38
 20
8877408.9
 30
0
 40
157.39623
  1
P02
  0
TEXT
  8
0
 62
   255
 10
714794.38
 20
8877778.9
 30
0
 40
157.39623
  1
P01
  0
TEXT
  8
0
 62
   255
 10
720562.46
 20
8878245.4
 30
0
 40
157.39623
  1
LATITUDE (S)
  0
TEXT
  8
0
 62
   255
 10
720916.23
 20
8878642.6
 30
0
 40
157.39623
  1
COORDENADAS GEOGR^ñFICAS
  0
TEXT
  8
0
 62
   255
 10
720276.05
 20
8874084.2
 30
0
 40
157.39623
  1
-10 17' 42,62682''
  0
TEXT
  8
0
 62
   255
 10
720276.05
 20
8874454.2
 30
0
 40
157.39623
  1
-10 17' 55,35539''
  0
TEXT
  8
0
 62
   255
 10
720276.05
 20
8874824.2
 30
0
 40
157.39623
  1
-10 18' 07,24678''
  0
TEXT
  8
0
 62
   255
 10
720276.05
 20
8875194.2
 30
0
 40
157.39623
  1
-10 18' 14,72281''
  0
TEXT
  8
0
 62
   255
 10
720276.05
 20
8875564.2
 30
0
 40
157.39623
  1
-10 18' 13,53823''
  0
TEXT
  8
0
 62
   255
 10
720276.05
 20
8875934.2
 30
0
 40
157.39623
  1
-10 18' 07,12607''
  0
TEXT
  8
0
 62
   255
 10
720276.05
 20
8876304.2
 30
0
 40
157.39623
  1
-10 17' 58,21650''
  0
TEXT
  8
0
 62
   255
 10
720276.05
 20
8876674.2
 30
0
 40
157.39623
  1
-10 17' 51,86158''
  0
TEXT
  8
0
 62
   255
 10
720276.05
 20
8877044.2
 30
0
 40
157.39623
  1
-10 17' 38,51946''
  0
TEXT
  8
0
 62
   255
 10
720276.05
 20
8877414.2
 30
0
 40
157.39623
  1
-10 17' 21,58513''
  0
TEXT
  8
0
 62
   255
 10
720276.05
 20
8877784.2
 30
0
 40
157.39623
  1
-10 17' 12,85860''
  0
TEXT
  8
0
 62
   255
 10
718454.44
 20
8878275
 30
0
 40
157.39623
  1
( N )
  0
TEXT
  8
0
 62
   255
 10
716416.26
 20
8878231.7
 30
0
 40
157.39623
  1
( E )
  0
TEXT
  8
0
 62
   255
 10
716440.32
 20
8878639
 30
0
 40
157.39623
  1
COORDENADAS UTM
  0
TEXT
  8
0
 62
   255
 10
718011.52
 20
8874079
 30
0
 40
157.39623
  1
8861096,300
  0
TEXT
  8
0
 62
   255
 10
718011.52
 20
8874449
 30
0
 40
157.39623
  1
8860703,700
  0
TEXT
  8
0
 62
   255
 10
718011.52
 20
8874819
 30
0
 40
157.39623
  1
8860343,800
  0
TEXT
  8
0
 62
   255
 10
718011.52
 20
8875189
 30
0
 40
157.39623
  1
8860114,700
  0
TEXT
  8
0
 62
   255
 10
718011.52
 20
8875559
 30
0
 40
157.39623
  1
8860147,400
  0
TEXT
  8
0
 62
   255
 10
718011.52
 20
8875929
 30
0
 40
157.39623
  1
8860343,800
  0
TEXT
  8
0
 62
   255
 10
718011.52
 20
8876299
 30
0
 40
157.39623
  1
8860613,700
  0
TEXT
  8
0
 62
   255
 10
718011.52
 20
8876669
 30
0
 40
157.39623
  1
8860810,000
  0
TEXT
  8
0
 62
   255
 10
718011.52
 20
8877039
 30
0
 40
157.39623
  1
8861219,000
  0
TEXT
  8
0
 62
   255
 10
718011.52
 20
8877409
 30
0
 40
157.39623
  1
8861734,400
  0
TEXT
  8
0
 62
   255
 10
718011.52
 20
8877779
 30
0
 40
157.39623
  1
8862004,400
  0
TEXT
  8
0
 62
   255
 10
716007.86
 20
8874068
 30
0
 40
157.39623
  1
745046,910
  0
TEXT
  8
0
 62
   255
 10
716007.86
 20
8874438
 30
0
 40
157.39623
  1
745243,230
  0
TEXT
  8
0
 62
   255
 10
716007.86
 20
8874808
 30
0
 40
157.39623
  1
744441,560
  0
TEXT
  8
0
 62
   255
 10
716007.86
 20
8875178
 30
0
 40
157.39623
  1
744343,400
  0
TEXT
  8
0
 62
   255
 10
716007.86
 20
8875548
 30
0
 40
157.39623
  1
744875,120
  0
TEXT
  8
0
 62
   255
 10
716007.86
 20
8875918
 30
0
 40
157.39623
  1
744973,280
  0
TEXT
  8
0
 62
   255
 10
716007.86
 20
8876288
 30
0
 40
157.39623
  1
745537,730
  0
TEXT
  8
0
 62
   255
 10
716007.86
 20
8876658
 30
0
 40
157.39623
  1
745398,660
  0
TEXT
  8
0
 62
   255
 10
716007.86
 20
8877028
 30
0
 40
157.39623
  1
745554,090
  0
TEXT
  8
0
 62
   255
 10
716007.86
 20
8877398
 30
0
 40
157.39623
  1
746282,130
  0
TEXT
  8
0
 62
   255
 10
716007.86
 20
8877768
 30
0
 40
157.39623
  1
746028,540
  0
TEXT
  8
0
 62
   255
 10
728431.79
 20
8794767.6
 30
0
 40
157.39623
  1
( N )
  0
TEXT
  8
0
 62
   255
 10
726393.61
 20
8794724.3
 30
0
 40
157.39623
  1
( E )
  0
TEXT
  8
0
 62
   255
 10
726417.67
 20
8795131.6
 30
0
 40
157.39623
  1
COORDENADAS UTM
  0
TEXT
  8
0
 62
   255
 10
724575.8
 20
8794718.2
 30
0
 40
157.39623
  1
V^SRTICE
  0
TEXT
  8
0
 62
   255
 10
728431.79
 20
8798600.8
 30
0
 40
157.39623
  1
( N )
  0
TEXT
  8
0
 62
   255
 10
726393.61
 20
8798557.5
 30
0
 40
157.39623
  1
( E )
  0
TEXT
  8
0
 62
   255
 10
726417.67
 20
8798964.8
 30
0
 40
157.39623
  1
COORDENADAS UTM
  0
TEXT
  8
0
 62
   255
 10
724581.87
 20
8798551.3
 30
0
 40
157.39623
  1
V^SRTICE
 50
2.6991698e-007
  0
TEXT
  8
0
 62
   255
 10
723348.85
 20
8878256.2
 30
0
 40
157.39623
  1
LONGITUDE (W)
  0
TEXT
  8
0
 62
   255
 10
727938.26
 20
8790627.1
 30
0
 40
157.39623
  1
8820587,700
  0
TEXT
  8
0
 62
   255
 10
727938.26
 20
8790997.1
 30
0
 40
157.39623
  1
8820712,300
  0
TEXT
  8
0
 62
   255
 10
727938.26
 20
8791367.1
 30
0
 40
157.39623
  1
8820674,000
  0
TEXT
  8
0
 62
   255
 10
727938.26
 20
8791737.1
 30
0
 40
157.39623
  1
8820439,200
  0
TEXT
  8
0
 62
   255
 10
727938.26
 20
8792107.1
 30
0
 40
157.39623
  1
8820535,000
  0
TEXT
  8
0
 62
   255
 10
727938.26
 20
8792477.1
 30
0
 40
157.39623
  1
8820396,100
  0
TEXT
  8
0
 62
   255
 10
727938.26
 20
8792847.1
 30
0
 40
157.39623
  1
8820036,800
  0
TEXT
  8
0
 62
   255
 10
727938.26
 20
8793217.1
 30
0
 40
157.39623
  1
8819481,000
  0
TEXT
  8
0
 62
   255
 10
727938.26
 20
8793587.1
 30
0
 40
157.39623
  1
8819533,700
  0
TEXT
  8
0
 62
   255
 10
727938.26
 20
8793957.1
 30
0
 40
157.39623
  1
8820108,600
  0
TEXT
  8
0
 62
   255
 10
727938.26
 20
8794327.1
 30
0
 40
157.39623
  1
8820745,800
  0
TEXT
  8
0
 62
   255
 10
725979.73
 20
8790632.5
 30
0
 40
157.39623
  1
707482,220
  0
TEXT
  8
0
 62
   255
 10
725979.73
 20
8791002.5
 30
0
 40
157.39623
  1
707338,490
  0
TEXT
  8
0
 62
   255
 10
725979.73
 20
8791372.5
 30
0
 40
157.39623
  1
707055,830
  0
TEXT
  8
0
 62
   255
 10
725979.73
 20
8791742.5
 30
0
 40
157.39623
  1
707055,830
  0
TEXT
  8
0
 62
   255
 10
725979.73
 20
8792112.5
 30
0
 40
157.39623
  1
706701,300
  0
TEXT
  8
0
 62
   255
 10
725979.73
 20
8792482.5
 30
0
 40
157.39623
  1
705369,430
  0
TEXT
  8
0
 62
   255
 10
725979.73
 20
8792852.5
 30
0
 40
157.39623
  1
704746,610
  0
TEXT
  8
0
 62
   255
 10
725979.73
 20
8793222.5
 30
0
 40
157.39623
  1
704880,760
  0
TEXT
  8
0
 62
   255
 10
725979.73
 20
8793592.5
 30
0
 40
157.39623
  1
707688,220
  0
TEXT
  8
0
 62
   255
 10
725979.73
 20
8793962.5
 30
0
 40
157.39623
  1
708028,380
  0
TEXT
  8
0
 62
   255
 10
725979.73
 20
8794332.5
 30
0
 40
157.39623
  1
707702,600
  0
TEXT
  8
0
 62
   255
 10
724883.86
 20
8790623.2
 30
0
 40
157.39623
  1
P11
  0
TEXT
  8
0
 62
   255
 10
724883.86
 20
8790993.2
 30
0
 40
157.39623
  1
P10
  0
TEXT
  8
0
 62
   255
 10
724883.86
 20
8791363.2
 30
0
 40
157.39623
  1
P09
  0
TEXT
  8
0
 62
   255
 10
724883.86
 20
8791733.2
 30
0
 40
157.39623
  1
P08
  0
TEXT
  8
0
 62
   255
 10
724883.86
 20
8792103.2
 30
0
 40
157.39623
  1
P07
  0
TEXT
  8
0
 62
   255
 10
724883.86
 20
8792473.2
 30
0
 40
157.39623
  1
P06
  0
TEXT
  8
0
 62
   255
 10
724883.86
 20
8792843.2
 30
0
 40
157.39623
  1
P05
  0
TEXT
  8
0
 62
   255
 10
724883.86
 20
8793213.2
 30
0
 40
157.39623
  1
P04
  0
TEXT
  8
0
 62
   255
 10
724883.86
 20
8793583.2
 30
0
 40
157.39623
  1
P03
  0
TEXT
  8
0
 62
   255
 10
724883.86
 20
8793953.2
 30
0
 40
157.39623
  1
P02
  0
TEXT
  8
0
 62
   255
 10
724883.86
 20
8794323.2
 30
0
 40
157.39623
  1
P01
  0
TEXT
  8
0
 62
   255
 10
727875.57
 20
8796652.9
 30
0
 40
157.39623
  1
8815173,400
  0
TEXT
  8
0
 62
   255
 10
727875.57
 20
8797022.9
 30
0
 40
157.39623
  1
8814847,400
  0
TEXT
  8
0
 62
   255
 10
727875.57
 20
8797392.9
 30
0
 40
157.39623
  1
8814767,400
  0
TEXT
  8
0
 62
   255
 10
727875.57
 20
8797762.9
 30
0
 40
157.39623
  1
8815296,500
  0
TEXT
  8
0
 62
   255
 10
727875.57
 20
8798132.9
 30
0
 40
157.39623
  1
8815548,700
  0
TEXT
  8
0
 62
   255
 10
725851.37
 20
8796650.1
 30
0
 40
157.39623
  1
703284,400
  0
TEXT
  8
0
 62
   255
 10
725851.37
 20
8797020.1
 30
0
 40
157.39623
  1
703278,250
  0
TEXT
  8
0
 62
   255
 10
725851.37
 20
8797390.1
 30
0
 40
157.39623
  1
703598,150
  0
TEXT
  8
0
 62
   255
 10
725851.37
 20
8797760.1
 30
0
 40
157.39623
  1
704139,510
  0
TEXT
  8
0
 62
   255
 10
725851.37
 20
8798130.1
 30
0
 40
157.39623
  1
703893,440
  0
TEXT
  8
0
 62
   255
 10
724853.2
 20
8796630.7
 30
0
 40
157.39623
  1
P05
  0
TEXT
  8
0
 62
   255
 10
724853.2
 20
8797000.7
 30
0
 40
157.39623
  1
P04
  0
TEXT
  8
0
 62
   255
 10
724853.2
 20
8797370.7
 30
0
 40
157.39623
  1
P03
  0
TEXT
  8
0
 62
   255
 10
724853.2
 20
8797740.7
 30
0
 40
157.39623
  1
P02
  0
TEXT
  8
0
 62
   255
 10
724853.2
 20
8798110.7
 30
0
 40
157.39623
  1
P01
  0
TEXT
  8
0
 62
   255
 10
723120.39
 20
8874094
 30
0
 40
157.39623
  1
-36 45' 45,23663''
  0
TEXT
  8
0
 62
   255
 10
723120.39
 20
8874464
 30
0
 40
157.39623
  1
-36 45' 38,69680''
  0
TEXT
  8
0
 62
   255
 10
723120.39
 20
8874834
 30
0
 40
157.39623
  1
-36 46' 04,95194''
  0
TEXT
  8
0
 62
   255
 10
723120.39
 20
8875204
 30
0
 40
157.39623
  1
-36 46' 08,12442''
  0
TEXT
  8
0
 62
   255
 10
723120.39
 20
8875574
 30
0
 40
157.39623
  1
-36 45' 50,66282''
  0
TEXT
  8
0
 62
   255
 10
723120.39
 20
8875944
 30
0
 40
157.39623
  1
-36 45' 47,48296''
  0
TEXT
  8
0
 62
   255
 10
723120.39
 20
8876314
 30
0
 40
157.39623
  1
-36 45' 29,00082''
  0
TEXT
  8
0
 62
   255
 10
723120.39
 20
8876684
 30
0
 40
157.39623
  1
-36 45' 33,61484''
  0
TEXT
  8
0
 62
   255
 10
723120.39
 20
8877054
 30
0
 40
157.39623
  1
-36 45' 28,60251''
  0
TEXT
  8
0
 62
   255
 10
723120.39
 20
8877424
 30
0
 40
157.39623
  1
-36 45' 04,80326''
  0
TEXT
  8
0
 62
   255
 10
723120.39
 20
8877794
 30
0
 40
157.39623
  1
-36 45' 13,19637''
  0
TEXT
  8
0
 62
   255
 10
733326.2
 20
8794748.8
 30
0
 40
157.39623
  1
LONGITUDE (W)
  0
TEXT
  8
0
 62
   255
 10
730539.81
 20
8794738
 30
0
 40
157.39623
  1
LATITUDE (S)
  0
TEXT
  8
0
 62
   255
 10
730893.58
 20
8795135.2
 30
0
 40
157.39623
  1
COORDENADAS GEOGR^ñFICAS
  0
TEXT
  8
0
 62
   255
 10
733326.2
 20
8798582
 30
0
 40
157.39623
  1
LONGITUDE (W)
  0
TEXT
  8
0
 62
   255
 10
730539.81
 20
8798571.1
 30
0
 40
157.39623
  1
LATITUDE (S)
  0
TEXT
  8
0
 62
   255
 10
730893.58
 20
8798968.3
 30
0
 40
157.39623
  1
COORDENADAS GEOGR^ñFICAS
  0
TEXT
  8
0
 62
   255
 10
733160.14
 20
8790659.8
 30
0
 40
157.39623
  1
-37 06' 11,47052''
  0
TEXT
  8
0
 62
   255
 10
733160.14
 20
8791029.8
 30
0
 40
157.39623
  1
-37 06' 16,22418''
  0
TEXT
  8
0
 62
   255
 10
733160.14
 20
8791399.8
 30
0
 40
157.39623
  1
-37 06' 25,51566''
  0
TEXT
  8
0
 62
   255
 10
733160.14
 20
8791769.8
 30
0
 40
157.39623
  1
-37 06' 25,46841''
  0
TEXT
  8
0
 62
   255
 10
733160.14
 20
8792139.8
 30
0
 40
157.39623
  1
-37 06' 37,15139''
  0
TEXT
  8
0
 62
   255
 10
733160.14
 20
8792509.8
 30
0
 40
157.39623
  1
-37 07' 20,94112''
  0
TEXT
  8
0
 62
   255
 10
733160.14
 20
8792879.8
 30
0
 40
157.39623
  1
-37 07' 41,36008''
  0
TEXT
  8
0
 62
   255
 10
733160.14
 20
8793249.8
 30
0
 40
157.39623
  1
-37 07' 36,83582''
  0
TEXT
  8
0
 62
   255
 10
733160.14
 20
8793619.8
 30
0
 40
157.39623
  1
-37 06' 04,48055''
  0
TEXT
  8
0
 62
   255
 10
733160.14
 20
8793989.8
 30
0
 40
157.39623
  1
-37 05' 53,40563''
  0
TEXT
  8
0
 62
   255
 10
733160.14
 20
8794359.8
 30
0
 40
157.39623
  1
-37 06' 04,25218''
  0
TEXT
  8
0
 62
   255
 10
733086.26
 20
8796636.3
 30
0
 40
157.39623
  1
-37 08' 28,50357''
  0
TEXT
  8
0
 62
   255
 10
733086.26
 20
8797006.3
 30
0
 40
157.39623
  1
-37 08' 28,64122''
  0
TEXT
  8
0
 62
   255
 10
733086.26
 20
8797376.3
 30
0
 40
157.39623
  1
-37 08' 18,09894''
  0
TEXT
  8
0
 62
   255
 10
733086.26
 20
8797746.3
 30
0
 40
157.39623
  1
-37 08' 00,39086''
  0
TEXT
  8
0
 62
   255
 10
733086.26
 20
8798116.3
 30
0
 40
157.39623
  1
-37 08' 08,53791''
  0
TEXT
  8
0
 62
   255
 10
730251.72
 20
8790627.1
 30
0
 40
157.39623
  1
-10 39' 48,72179''
  0
TEXT
  8
0
 62
   255
 10
730251.72
 20
8790997.1
 30
0
 40
157.39623
  1
-10 39' 44,69581''
  0
TEXT
  8
0
 62
   255
 10
730251.72
 20
8791367.1
 30
0
 40
157.39623
  1
-10 39' 45,99842''
  0
TEXT
  8
0
 62
   255
 10
730251.72
 20
8791737.1
 30
0
 40
157.39623
  1
-10 39' 53,63911''
  0
TEXT
  8
0
 62
   255
 10
730251.72
 20
8792107.1
 30
0
 40
157.39623
  1
-10 39' 50,59215''
  0
TEXT
  8
0
 62
   255
 10
730236.18
 20
8796631
 30
0
 40
157.39623
  1
-10 42' 45,74176''
  0
TEXT
  8
0
 62
   255
 10
730236.18
 20
8797001
 30
0
 40
157.39623
  1
-10 42' 56,35159''
  0
TEXT
  8
0
 62
   255
 10
730236.18
 20
8797371
 30
0
 40
157.39623
  1
-10 42' 58,89207''
  0
TEXT
  8
0
 62
   255
 10
730236.18
 20
8797741
 30
0
 40
157.39623
  1
-10 42' 41,56767''
  0
TEXT
  8
0
 62
   255
 10
730236.18
 20
8798111
 30
0
 40
157.39623
  1
-10 42' 33,40913''
  0
TEXT
  8
0
 62
   255
 10
713343.52
 20
8868788.1
 30
0
 40
157.39623
  1
LONGITUDE (W)
  0
TEXT
  8
0
 62
   255
 10
717679.58
 20
8879090.8
 30
0
 40
157.39623
  1
 ^ñREA DE SOLUTURA 03 = 76,3817ha
 50
1.2895539e-008
  0
TEXT
  8
0
 62
   255
 10
714540.58
 20
8878225.6
 30
0
 40
157.39623
  1
V^SRTICE
  0
TEXT
  8
0
 62
   255
 10
713062.34
 20
8863911.2
 30
0
 40
157.39623
  1
-36 42' 13,16921''
  0
TEXT
  8
0
 62
   255
 10
713062.34
 20
8864281.2
 30
0
 40
157.39623
  1
-36 42' 08,39259''
  0
TEXT
  8
0
 62
   255
 10
713062.34
 20
8864651.2
 30
0
 40
157.39623
  1
-36 41' 43,25129''
  0
TEXT
  8
0
 62
   255
 10
713062.34
 20
8865021.2
 30
0
 40
157.39623
  1
-36 41' 28,99917''
  0
TEXT
  8
0
 62
   255
 10
713062.34
 20
8865391.2
 30
0
 40
157.39623
  1
-36 41' 25,85687''
  0
TEXT
  8
0
 62
   255
 10
713062.34
 20
8865761.2
 30
0
 40
157.39623
  1
-36 41' 31,91627''
  0
TEXT
  8
0
 62
   255
 10
713062.34
 20
8866131.2
 30
0
 40
157.39623
  1
-36 41' 20,92146''
  0
TEXT
  8
0
 62
   255
 10
713062.34
 20
8866501.2
 30
0
 40
157.39623
  1
-36 41' 09,02141''
  0
TEXT
  8
0
 62
   255
 10
713062.34
 20
8866871.2
 30
0
 40
157.39623
  1
-36 41' 12,99097''
  0
TEXT
  8
0
 62
   255
 10
713062.34
 20
8867241.2
 30
0
 40
157.39623
  1
-36 41' 09,80013''
  0
TEXT
  8
0
 62
   255
 10
713062.34
 20
8867611.2
 30
0
 40
157.39623
  1
-36 41' 20,33457''
  0
TEXT
  8
0
 62
   255
 10
713062.34
 20
8867981.2
 30
0
 40
157.39623
  1
-36 41' 20,83873''
  0
TEXT
  8
0
 62
   255
 10
713062.34
 20
8868351.2
 30
0
 40
157.39623
  1
-36 41' 26,35638''
  0
TEXT
  8
0
 62
   255
 10
707858.04
 20
8863877.1
 30
0
 40
157.39623
  1
8862209,400
  0
TEXT
  8
0
 62
   255
 10
707858.04
 20
8864247.1
 30
0
 40
157.39623
  1
8861449,600
  0
TEXT
  8
0
 62
   255
 10
707858.04
 20
8864617.1
 30
0
 40
157.39623
  1
8861609,500
  0
TEXT
  8
0
 62
   255
 10
707858.04
 20
8864987.1
 30
0
 40
157.39623
  1
8861522,900
  0
TEXT
  8
0
 62
   255
 10
707858.04
 20
8865357.1
 30
0
 40
157.39623
  1
8861196,300
  0
TEXT
  8
0
 62
   255
 10
707858.04
 20
8865727.1
 30
0
 40
157.39623
  1
8860896,400
  0
TEXT
  8
0
 62
   255
 10
707858.04
 20
8866097.1
 30
0
 40
157.39623
  1
8860696,400
  0
TEXT
  8
0
 62
   255
 10
707858.04
 20
8866467.1
 30
0
 40
157.39623
  1
8861296,300
  0
TEXT
  8
0
 62
   255
 10
707858.04
 20
8866837.1
 30
0
 40
157.39623
  1
8861416,200
  0
TEXT
  8
0
 62
   255
 10
707858.04
 20
8867207.1
 30
0
 40
157.39623
  1
8861809,500
  0
TEXT
  8
0
 62
   255
 10
707858.04
 20
8867577.1
 30
0
 40
157.39623
  1
8861916,100
  0
TEXT
  8
0
 62
   255
 10
707858.04
 20
8867947.1
 30
0
 40
157.39623
  1
8862196,000
  0
TEXT
  8
0
 62
   255
 10
707858.04
 20
8868317.1
 30
0
 40
157.39623
  1
8862382,700
  0
TEXT
  8
0
 62
   255
 10
706410.93
 20
8868763.6
 30
0
 40
157.39623
  1
( E )
  0
TEXT
  8
0
 62
   255
 10
704535.25
 20
8868757.4
 30
0
 40
157.39623
  1
V^SRTICE
  0
TEXT
  8
0
 62
   255
 10
705947.14
 20
8863879.5
 30
0
 40
157.39623
  1
751510,070
  0
TEXT
  8
0
 62
   255
 10
705947.14
 20
8864249.5
 30
0
 40
157.39623
  1
751650,030
  0
TEXT
  8
0
 62
   255
 10
705947.14
 20
8864619.5
 30
0
 40
157.39623
  1
752416,490
  0
TEXT
  8
0
 62
   255
 10
705947.14
 20
8864989.5
 30
0
 40
157.39623
  1
752849,710
  0
TEXT
  8
0
 62
   255
 10
705947.14
 20
8865359.5
 30
0
 40
157.39623
  1
752943,010
  0
TEXT
  8
0
 62
   255
 10
705947.14
 20
8865729.5
 30
0
 40
157.39623
  1
752756,400
  0
TEXT
  8
0
 62
   255
 10
705947.14
 20
8866099.5
 30
0
 40
157.39623
  1
753089,640
  0
TEXT
  8
0
 62
   255
 10
705947.14
 20
8866469.5
 30
0
 40
157.39623
  1
753456,210
  0
TEXT
  8
0
 62
   255
 10
705947.14
 20
8866839.5
 30
0
 40
157.39623
  1
753336,240
  0
TEXT
  8
0
 62
   255
 10
705947.14
 20
8867209.5
 30
0
 40
157.39623
  1
753436,210
  0
TEXT
  8
0
 62
   255
 10
705947.14
 20
8867579.5
 30
0
 40
157.39623
  1
753116,300
  0
TEXT
  8
0
 62
   255
 10
705947.14
 20
8867949.5
 30
0
 40
157.39623
  1
753102,970
  0
TEXT
  8
0
 62
   255
 10
705947.14
 20
8868319.5
 30
0
 40
157.39623
  1
752936,350
  0
TEXT
  8
0
 62
   255
 10
704820.87
 20
8863870.2
 30
0
 40
157.39623
  1
P13
  0
TEXT
  8
0
 62
   255
 10
704820.87
 20
8864240.2
 30
0
 40
157.39623
  1
P12
  0
TEXT
  8
0
 62
   255
 10
704820.87
 20
8864610.2
 30
0
 40
157.39623
  1
P11
  0
TEXT
  8
0
 62
   255
 10
704820.87
 20
8864980.2
 30
0
 40
157.39623
  1
P10
  0
TEXT
  8
0
 62
   255
 10
704820.87
 20
8865350.2
 30
0
 40
157.39623
  1
P09
  0
TEXT
  8
0
 62
   255
 10
704820.87
 20
8865720.2
 30
0
 40
157.39623
  1
P08
  0
TEXT
  8
0
 62
   255
 10
704820.87
 20
8866090.2
 30
0
 40
157.39623
  1
P07
  0
TEXT
  8
0
 62
   255
 10
704820.87
 20
8866460.2
 30
0
 40
157.39623
  1
P06
  0
TEXT
  8
0
 62
   255
 10
704820.87
 20
8866830.2
 30
0
 40
157.39623
  1
P05
  0
TEXT
  8
0
 62
   255
 10
704820.87
 20
8867200.2
 30
0
 40
157.39623
  1
P04
  0
TEXT
  8
0
 62
   255
 10
704820.87
 20
8867570.2
 30
0
 40
157.39623
  1
P03
  0
TEXT
  8
0
 62
   255
 10
704820.87
 20
8867940.2
 30
0
 40
157.39623
  1
P02
  0
TEXT
  8
0
 62
   255
 10
704820.87
 20
8868310.2
 30
0
 40
157.39623
  1
P01
  0
TEXT
  8
0
 62
   255
 10
710557.13
 20
8868777.2
 30
0
 40
157.39623
  1
LATITUDE (S)
  0
TEXT
  8
0
 62
   255
 10
708449.11
 20
8868806.9
 30
0
 40
157.39623
  1
( N )
  0
TEXT
  8
0
 62
   255
 10
710144.79
 20
8863922.2
 30
0
 40
157.39623
  1
-10 17' 04,92607''
  0
TEXT
  8
0
 62
   255
 10
710144.79
 20
8864292.2
 30
0
 40
157.39623
  1
-10 17' 29,61245''
  0
TEXT
  8
0
 62
   255
 10
710144.79
 20
8864662.2
 30
0
 40
157.39623
  1
-10 17' 24,23135''
  0
TEXT
  8
0
 62
   255
 10
710144.79
 20
8865032.2
 30
0
 40
157.39623
  1
-10 17' 26,94732''
  0
TEXT
  8
0
 62
   255
 10
710144.79
 20
8865402.2
 30
0
 40
157.39623
  1
-10 17' 37,55082''
  0
TEXT
  8
0
 62
   255
 10
710144.79
 20
8865772.2
 30
0
 40
157.39623
  1
-10 17' 47,35130''
  0
TEXT
  8
0
 62
   255
 10
710144.79
 20
8866142.2
 30
0
 40
157.39623
  1
-10 17' 53,77980''
  0
TEXT
  8
0
 62
   255
 10
710144.79
 20
8866512.2
 30
0
 40
157.39623
  1
-10 17' 34,17706''
  0
TEXT
  8
0
 62
   255
 10
710144.79
 20
8866882.2
 30
0
 40
157.39623
  1
-10 17' 30,30450''
  0
TEXT
  8
0
 62
   255
 10
710144.79
 20
8867252.2
 30
0
 40
157.39623
  1
-10 17' 17,48573''
  0
TEXT
  8
0
 62
   255
 10
710144.79
 20
8867622.2
 30
0
 40
157.39623
  1
-10 17' 14,09275''
  0
TEXT
  8
0
 62
   255
 10
710144.79
 20
8867992.2
 30
0
 40
157.39623
  1
-10 17' 04,98982''
  0
TEXT
  8
0
 62
   255
 10
710144.79
 20
8868362.2
 30
0
 40
157.39623
  1
-10 16' 58,95489''
  0
TEXT
  8
0
 62
   255
 10
714794.38
 20
8874078.9
 30
0
 40
157.39623
  1
P11
  0
TEXT
  8
0
 62
   255
 10
714794.38
 20
8874448.9
 30
0
 40
157.39623
  1
P10
  0
TEXT
  8
0
 62
   255
 10
714794.38
 20
8874818.9
 30
0
 40
157.39623
  1
P09
  0
TEXT
  8
0
 62
   255
 10
714794.38
 20
8875188.9
 30
0
 40
157.39623
  1
P08
  0
TEXT
  8
0
 62
   255
 10
714794.38
 20
8875558.9
 30
0
 40
157.39623
  1
P07
  0
TEXT
  8
0
 62
   255
 10
714794.38
 20
8875928.9
 30
0
 40
157.39623
  1
P06
  0
TEXT
  8
0
 62
   255
 10
714794.38
 20
8876298.9
 30
0
 40
157.39623
  1
P05
  0
TEXT
  8
0
 62
   255
 10
714794.38
 20
8876668.9
 30
0
 40
157.39623
  1
P04
  0
TEXT
  8
0
 62
   255
 10
714794.38
 20
8877038.9
 30
0
 40
157.39623
  1
P03
  0
TEXT
  8
0
 62
   255
 10
714794.38
 20
8877408.9
 30
0
 40
157.39623
  1
P02
  0
TEXT
  8
0
 62
   255
 10
714794.38
 20
8877778.9
 30
0
 40
157.39623
  1
P01
  0
TEXT
  8
0
 62
   255
 10
720562.46
 20
8878245.4
 30
0
 40
157.39623
  1
LATITUDE (S)
  0
TEXT
  8
0
 62
   255
 10
720276.05
 20
8874084.2
 30
0
 40
157.39623
  1
-10 17' 42,62682''
  0
TEXT
  8
0
 62
   255
 10
720276.05
 20
8874454.2
 30
0
 40
157.39623
  1
-10 17' 55,35539''
  0
TEXT
  8
0
 62
   255
 10
720276.05
 20
8874824.2
 30
0
 40
157.39623
  1
-10 18' 07,24678''
  0
TEXT
  8
0
 62
   255
 10
720276.05
 20
8875194.2
 30
0
 40
157.39623
  1
-10 18' 14,72281''
  0
TEXT
  8
0
 62
   255
 10
720276.05
 20
8875564.2
 30
0
 40
157.39623
  1
-10 18' 13,53823''
  0
TEXT
  8
0
 62
   255
 10
720276.05
 20
8875934.2
 30
0
 40
157.39623
  1
-10 18' 07,12607''
  0
TEXT
  8
0
 62
   255
 10
720276.05
 20
8876304.2
 30
0
 40
157.39623
  1
-10 17' 58,21650''
  0
TEXT
  8
0
 62
   255
 10
720276.05
 20
8876674.2
 30
0
 40
157.39623
  1
-10 17' 51,86158''
  0
TEXT
  8
0
 62
   255
 10
720276.05
 20
8877044.2
 30
0
 40
157.39623
  1
-10 17' 38,51946''
  0
TEXT
  8
0
 62
   255
 10
720276.05
 20
8877414.2
 30
0
 40
157.39623
  1
-10 17' 21,58513''
  0
TEXT
  8
0
 62
   255
 10
720276.05
 20
8877784.2
 30
0
 40
157.39623
  1
-10 17' 12,85860''
  0
TEXT
  8
0
 62
   255
 10
718454.44
 20
8878275
 30
0
 40
157.39623
  1
( N )
  0
TEXT
  8
0
 62
   255
 10
716416.26
 20
8878231.7
 30
0
 40
157.39623
  1
( E )
  0
TEXT
  8
0
 62
   255
 10
718011.52
 20
8874079
 30
0
 40
157.39623
  1
8861096,300
  0
TEXT
  8
0
 62
   255
 10
718011.52
 20
8874449
 30
0
 40
157.39623
  1
8860703,700
  0
TEXT
  8
0
 62
   255
 10
718011.52
 20
8874819
 30
0
 40
157.39623
  1
8860343,800
  0
TEXT
  8
0
 62
   255
 10
718011.52
 20
8875189
 30
0
 40
157.39623
  1
8860114,700
  0
TEXT
  8
0
 62
   255
 10
718011.52
 20
8875559
 30
0
 40
157.39623
  1
8860147,400
  0
TEXT
  8
0
 62
   255
 10
718011.52
 20
8875929
 30
0
 40
157.39623
  1
8860343,800
  0
TEXT
  8
0
 62
   255
 10
718011.52
 20
8876299
 30
0
 40
157.39623
  1
8860613,700
  0
TEXT
  8
0
 62
   255
 10
718011.52
 20
8876669
 30
0
 40
157.39623
  1
8860810,000
  0
TEXT
  8
0
 62
   255
 10
718011.52
 20
8877039
 30
0
 40
157.39623
  1
8861219,000
  0
TEXT
  8
0
 62
   255
 10
718011.52
 20
8877409
 30
0
 40
157.39623
  1
8861734,400
  0
TEXT
  8
0
 62
   255
 10
718011.52
 20
8877779
 30
0
 40
157.39623
  1
8862004,400
  0
TEXT
  8
0
 62
   255
 10
716007.86
 20
8874068
 30
0
 40
157.39623
  1
745046,910
  0
TEXT
  8
0
 62
   255
 10
716007.86
 20
8874438
 30
0
 40
157.39623
  1
745243,230
  0
TEXT
  8
0
 62
   255
 10
716007.86
 20
8874808
 30
0
 40
157.39623
  1
744441,560
  0
TEXT
  8
0
 62
   255
 10
716007.86
 20
8875178
 30
0
 40
157.39623
  1
744343,400
  0
TEXT
  8
0
 62
   255
 10
716007.86
 20
8875548
 30
0
 40
157.39623
  1
744875,120
  0
TEXT
  8
0
 62
   255
 10
716007.86
 20
8875918
 30
0
 40
157.39623
  1
744973,280
  0
TEXT
  8
0
 62
   255
 10
716007.86
 20
8876288
 30
0
 40
157.39623
  1
745537,730
  0
TEXT
  8
0
 62
   255
 10
716007.86
 20
8876658
 30
0
 40
157.39623
  1
745398,660
  0
TEXT
  8
0
 62
   255
 10
716007.86
 20
8877028
 30
0
 40
157.39623
  1
745554,090
  0
TEXT
  8
0
 62
   255
 10
716007.86
 20
8877398
 30
0
 40
157.39623
  1
746282,130
  0
TEXT
  8
0
 62
   255
 10
716007.86
 20
8877768
 30
0
 40
157.39623
  1
746028,540
  0
TEXT
  8
0
 62
   255
 10
728431.79
 20
8798600.8
 30
0
 40
157.39623
  1
( N )
  0
TEXT
  8
0
 62
   255
 10
726393.61
 20
8798557.5
 30
0
 40
157.39623
  1
( E )
  0
TEXT
  8
0
 62
   255
 10
723348.85
 20
8878256.2
 30
0
 40
157.39623
  1
LONGITUDE (W)
  0
TEXT
  8
0
 62
   255
 10
727938.26
 20
8790627.1
 30
0
 40
157.39623
  1
8820587,700
  0
TEXT
  8
0
 62
   255
 10
727938.26
 20
8790997.1
 30
0
 40
157.39623
  1
8820712,300
  0
TEXT
  8
0
 62
   255
 10
727938.26
 20
8791367.1
 30
0
 40
157.39623
  1
8820674,000
  0
TEXT
  8
0
 62
   255
 10
727938.26
 20
8791737.1
 30
0
 40
157.39623
  1
8820439,200
  0
TEXT
  8
0
 62
   255
 10
727938.26
 20
8792107.1
 30
0
 40
157.39623
  1
8820535,000
  0
TEXT
  8
0
 62
   255
 10
727938.26
 20
8792477.1
 30
0
 40
157.39623
  1
8820396,100
  0
TEXT
  8
0
 62
   255
 10
727938.26
 20
8792847.1
 30
0
 40
157.39623
  1
8820036,800
  0
TEXT
  8
0
 62
   255
 10
727938.26
 20
8793957.1
 30
0
 40
157.39623
  1
8820108,600
  0
TEXT
  8
0
 62
   255
 10
725979.73
 20
8790632.5
 30
0
 40
157.39623
  1
707482,220
  0
TEXT
  8
0
 62
   255
 10
725979.73
 20
8791002.5
 30
0
 40
157.39623
  1
707338,490
  0
TEXT
  8
0
 62
   255
 10
725979.73
 20
8791372.5
 30
0
 40
157.39623
  1
707055,830
  0
TEXT
  8
0
 62
   255
 10
725979.73
 20
8791742.5
 30
0
 40
157.39623
  1
707055,830
  0
TEXT
  8
0
 62
   255
 10
725979.73
 20
8792112.5
 30
0
 40
157.39623
  1
706701,300
  0
TEXT
  8
0
 62
   255
 10
725979.73
 20
8793222.5
 30
0
 40
157.39623
  1
704880,760
  0
TEXT
  8
0
 62
   255
 10
725979.73
 20
8794332.5
 30
0
 40
157.39623
  1
707702,600
  0
TEXT
  8
0
 62
   255
 10
724883.86
 20
8790623.2
 30
0
 40
157.39623
  1
P11
  0
TEXT
  8
0
 62
   255
 10
724883.86
 20
8790993.2
 30
0
 40
157.39623
  1
P10
  0
TEXT
  8
0
 62
   255
 10
724883.86
 20
8791363.2
 30
0
 40
157.39623
  1
P09
  0
TEXT
  8
0
 62
   255
 10
724883.86
 20
8791733.2
 30
0
 40
157.39623
  1
P08
  0
TEXT
  8
0
 62
   255
 10
724883.86
 20
8792103.2
 30
0
 40
157.39623
  1
P07
  0
TEXT
  8
0
 62
   255
 10
724883.86
 20
8792473.2
 30
0
 40
157.39623
  1
P06
  0
TEXT
  8
0
 62
   255
 10
724883.86
 20
8792843.2
 30
0
 40
157.39623
  1
P05
  0
TEXT
  8
0
 62
   255
 10
724883.86
 20
8793213.2
 30
0
 40
157.39623
  1
P04
  0
TEXT
  8
0
 62
   255
 10
724883.86
 20
8793583.2
 30
0
 40
157.39623
  1
P03
  0
TEXT
  8
0
 62
   255
 10
724883.86
 20
8793953.2
 30
0
 40
157.39623
  1
P02
  0
TEXT
  8
0
 62
   255
 10
724883.86
 20
8794323.2
 30
0
 40
157.39623
  1
P01
  0
TEXT
  8
0
 62
   255
 10
727875.57
 20
8796652.9
 30
0
 40
157.39623
  1
8815173,400
  0
TEXT
  8
0
 62
   255
 10
727875.57
 20
8797022.9
 30
0
 40
157.39623
  1
8814847,400
  0
TEXT
  8
0
 62
   255
 10
727875.57
 20
8797392.9
 30
0
 40
157.39623
  1
8814767,400
  0
TEXT
  8
0
 62
   255
 10
727875.57
 20
8797762.9
 30
0
 40
157.39623
  1
8815296,500
  0
TEXT
  8
0
 62
   255
 10
727875.57
 20
8798132.9
 30
0
 40
157.39623
  1
8815548,700
  0
TEXT
  8
0
 62
   255
 10
725851.37
 20
8796650.1
 30
0
 40
157.39623
  1
703284,400
  0
TEXT
  8
0
 62
   255
 10
725851.37
 20
8797020.1
 30
0
 40
157.39623
  1
703278,250
  0
TEXT
  8
0
 62
   255
 10
725851.37
 20
8797390.1
 30
0
 40
157.39623
  1
703598,150
  0
TEXT
  8
0
 62
   255
 10
725851.37
 20
8797760.1
 30
0
 40
157.39623
  1
704139,510
  0
TEXT
  8
0
 62
   255
 10
725851.37
 20
8798130.1
 30
0
 40
157.39623
  1
703893,440
  0
TEXT
  8
0
 62
   255
 10
724853.2
 20
8796630.7
 30
0
 40
157.39623
  1
P05
  0
TEXT
  8
0
 62
   255
 10
724853.2
 20
8797000.7
 30
0
 40
157.39623
  1
P04
  0
TEXT
  8
0
 62
   255
 10
724853.2
 20
8797370.7
 30
0
 40
157.39623
  1
P03
  0
TEXT
  8
0
 62
   255
 10
724853.2
 20
8797740.7
 30
0
 40
157.39623
  1
P02
  0
TEXT
  8
0
 62
   255
 10
724853.2
 20
8798110.7
 30
0
 40
157.39623
  1
P01
  0
TEXT
  8
0
 62
   255
 10
723120.39
 20
8874094
 30
0
 40
157.39623
  1
-36 45' 45,23663''
  0
TEXT
  8
0
 62
   255
 10
723120.39
 20
8874464
 30
0
 40
157.39623
  1
-36 45' 38,69680''
  0
TEXT
  8
0
 62
   255
 10
723120.39
 20
8874834
 30
0
 40
157.39623
  1
-36 46' 04,95194''
  0
TEXT
  8
0
 62
   255
 10
723120.39
 20
8875204
 30
0
 40
157.39623
  1
-36 46' 08,12442''
  0
TEXT
  8
0
 62
   255
 10
723120.39
 20
8875574
 30
0
 40
157.39623
  1
-36 45' 50,66282''
  0
TEXT
  8
0
 62
   255
 10
723120.39
 20
8875944
 30
0
 40
157.39623
  1
-36 45' 47,48296''
  0
TEXT
  8
0
 62
   255
 10
723120.39
 20
8876314
 30
0
 40
157.39623
  1
-36 45' 29,00082''
  0
TEXT
  8
0
 62
   255
 10
723120.39
 20
8876684
 30
0
 40
157.39623
  1
-36 45' 33,61484''
  0
TEXT
  8
0
 62
   255
 10
723120.39
 20
8877054
 30
0
 40
157.39623
  1
-36 45' 28,60251''
  0
TEXT
  8
0
 62
   255
 10
723120.39
 20
8877424
 30
0
 40
157.39623
  1
-36 45' 04,80326''
  0
TEXT
  8
0
 62
   255
 10
723120.39
 20
8877794
 30
0
 40
157.39623
  1
-36 45' 13,19637''
  0
TEXT
  8
0
 62
   255
 10
733326.2
 20
8794748.8
 30
0
 40
157.39623
  1
LONGITUDE (W)
  0
TEXT
  8
0
 62
   255
 10
730539.81
 20
8794738
 30
0
 40
157.39623
  1
LATITUDE (S)
  0
TEXT
  8
0
 62
   255
 10
733326.2
 20
8798582
 30
0
 40
157.39623
  1
LONGITUDE (W)
  0
TEXT
  8
0
 62
   255
 10
730539.81
 20
8798571.1
 30
0
 40
157.39623
  1
LATITUDE (S)
  0
TEXT
  8
0
 62
   255
 10
733160.14
 20
8790659.8
 30
0
 40
157.39623
  1
-37 06' 11,47052''
  0
TEXT
  8
0
 62
   255
 10
733160.14
 20
8791029.8
 30
0
 40
157.39623
  1
-37 06' 16,22418''
  0
TEXT
  8
0
 62
   255
 10
733160.14
 20
8791399.8
 30
0
 40
157.39623
  1
-37 06' 25,51566''
  0
TEXT
  8
0
 62
   255
 10
733160.14
 20
8791769.8
 30
0
 40
157.39623
  1
-37 06' 25,46841''
  0
TEXT
  8
0
 62
   255
 10
733160.14
 20
8792139.8
 30
0
 40
157.39623
  1
-37 06' 37,15139''
  0
TEXT
  8
0
 62
   255
 10
733160.14
 20
8792509.8
 30
0
 40
157.39623
  1
-37 07' 20,94112''
  0
TEXT
  8
0
 62
   255
 10
733160.14
 20
8792879.8
 30
0
 40
157.39623
  1
-37 07' 41,36008''
  0
TEXT
  8
0
 62
   255
 10
733160.14
 20
8793249.8
 30
0
 40
157.39623
  1
-37 07' 36,83582''
  0
TEXT
  8
0
 62
   255
 10
733160.14
 20
8793619.8
 30
0
 40
157.39623
  1
-37 06' 04,48055''
  0
TEXT
  8
0
 62
   255
 10
733160.14
 20
8793989.8
 30
0
 40
157.39623
  1
-37 05' 53,40563''
  0
TEXT
  8
0
 62
   255
 10
733160.14
 20
8794359.8
 30
0
 40
157.39623
  1
-37 06' 04,25218''
  0
TEXT
  8
0
 62
   255
 10
733086.26
 20
8796636.3
 30
0
 40
157.39623
  1
-37 08' 28,50357''
  0
TEXT
  8
0
 62
   255
 10
733086.26
 20
8797006.3
 30
0
 40
157.39623
  1
-37 08' 28,64122''
  0
TEXT
  8
0
 62
   255
 10
733086.26
 20
8797376.3
 30
0
 40
157.39623
  1
-37 08' 18,09894''
  0
TEXT
  8
0
 62
   255
 10
733086.26
 20
8797746.3
 30
0
 40
157.39623
  1
-37 08' 00,39086''
  0
TEXT
  8
0
 62
   255
 10
733086.26
 20
8798116.3
 30
0
 40
157.39623
  1
-37 08' 08,53791''
  0
TEXT
  8
0
 62
   255
 10
720236.31
 20
8869238.5
 30
0
 40
157.39623
  1
PARCELAS
 50
3.8019642e-007
  0
TEXT
  8
0
 62
   255
 10
722472.67
 20
8869393.2
 30
0
 40
157.39623
  1
COORDENADAS UTM
 50
9.0268703e-008
  0
TEXT
  8
0
 62
   255
 10
722416.41
 20
8869069.7
 30
0
 40
157.39623
  1
( E )
 50
2.8267906e-006
  0
TEXT
  8
0
 62
   255
 10
724407.73
 20
8869099.8
 30
0
 40
157.39623
  1
( N )
 50
6.9551408e-006
  0
TEXT
  8
0
 62
   255
 10
720328.12
 20
8868785.1
 30
0
 40
157.39623
  1
1, 2, 3^M^J4, 5, 6^M^J7, 8, 9^M^J10, 11^M^J12, 13, 14^M^J15^M^J16, 17, 18^M^J19, 20, 21^M^J22, 23,24^M^J25, 26^M^J27, 28, 29^M^J30^M^J31, 32^M^J33^M^J34, 35, 36
 50
6.6115846e-007
  0
TEXT
  8
0
 62
   255
 10
721889.36
 20
8868771
 30
0
 40
157.39623
  1
709.904,000^M^J709.810,000^M^J720.729,000^M^J726.208,000^M^J727.487,000^M^J728.256,000^M^J732.578,000^M^J747.858,000^M^J747.492,000^M^J750.701,000^M^J753.843,000^M^J759.561,000^M^J759.674,000^M^J765.322,000^M^J765.485,000
 50
8.1576397e-007
  0
TEXT
  8
0
 62
   255
 10
723788.16
 20
8868771
 30
0
 40
157.39623
  1
8.818.943,000^M^J8.818.895,000^M^J8.827.179,000^M^J8.830.473,000^M^J8.831.068,000^M^J8.831.727,000^M^J8.836.738,000^M^J8.847.279,000^M^J8.846.867,000^M^J8.850.144,000^M^J8.853.343,000^M^J8.861.641,000^M^J8.861.899,000^M^J8.865.634,000^M^J8.865.768,000
 50
8.1576397e-007
  0
TEXT
  8
0
 62
   255
 10
721307.76
 20
8787002
 30
0
 40
157.39623
  1
1, 2, 3^M^J4, 5, 6^M^J7, 8, 9^M^J10, 11^M^J12, 13, 14^M^J15^M^J16, 17, 18^M^J19, 20, 21^M^J22, 23,24^M^J25, 26^M^J27, 28, 29^M^J30^M^J31, 32^M^J33^M^J34, 35, 36
 50
8.287525e-007
  0
TEXT
  8
0
 62
   255
 10
722896.13
 20
8787005.4
 30
0
 40
157.39623
  1
709.904,000^M^J709.810,000^M^J720.729,000^M^J726.208,000^M^J727.487,000^M^J728.256,000^M^J732.578,000^M^J747.858,000^M^J747.492,000^M^J750.701,000^M^J753.843,000^M^J759.561,000^M^J759.674,000^M^J765.322,000^M^J765.485,000
 50
8.2540062e-007
  0
TEXT
  8
0
 62
   255
 10
724902.8
 20
8787026.9
 30
0
 40
157.39623
  1
8.818.943,000^M^J8.818.895,000^M^J8.827.179,000^M^J8.830.473,000^M^J8.831.068,000^M^J8.831.727,000^M^J8.836.738,000^M^J8.847.279,000^M^J8.846.867,000^M^J8.850.144,000^M^J8.853.343,000^M^J8.861.641,000^M^J8.861.899,000^M^J8.865.634,000^M^J8.865.768,000
 50
8.2246773e-007
  0
TEXT
  8
0
 62
   255
 10
723558.79
 20
8787700.9
 30
0
 40
157.39623
  1
COORDENADAS UTM
 50
2.1433288e-007
  0
TEXT
  8
0
 62
   255
 10
721179.42
 20
8787321.1
 30
0
 40
157.39623
  1
PARCELAS
 50
-1.1694931e-007
  0
TEXT
  8
0
 62
   255
 10
723424.33
 20
8787303.9
 30
0
 40
157.39623
  1
( E )
 50
-1.0921163e-006
  0
TEXT
  8
0
 62
   255
 10
725450.14
 20
8787310.9
 30
0
 40
157.39623
  1
( N )
 50
-1.0921167e-006
  0
TEXT
  8
0
 62
   255
 10
720667.21
 20
8869773.8
 30
0
 40
157.39623
  1
PARCELA DE LEVANTAMENTO DA FLORA
 50
4.8914094e-008
  0
TEXT
  8
0
 62
   255
 10
721818.9
 20
8788027.2
 30
0
 40
157.39623
  1
PARCELA DE LEVANTAMENTO DA FLORA
 50
2.9659708e-007
  0
ENDSEC
  0
EOF
